ISO-10303-21;
HEADER;
/* Generated by software containing ST-Developer
 * from STEP Tools, Inc. (www.steptools.com) 
 */

FILE_DESCRIPTION(
/* description */ (''),
/* implementation_level */ '2;1');

FILE_NAME(
/* name */ 'W:\\AUTOCAD\\AutoCad - Projects\\Numbered\\16AMP\\16AMP-12.
stp',
/* time_stamp */ '2021-03-09T08:36:14-05:00',
/* author */ ('rick'),
/* organization */ (''),
/* preprocessor_version */ 'ST-DEVELOPER v18',
/* originating_system */ 'Autodesk Inventor 2020',
/* authorisation */ '');

FILE_SCHEMA (('AUTOMOTIVE_DESIGN { 1 0 10303 214 3 1 1 }'));
ENDSEC;

DATA;
#10=MECHANICAL_DESIGN_GEOMETRIC_PRESENTATION_REPRESENTATION('',(#13),#441);
#11=SHAPE_REPRESENTATION_RELATIONSHIP('SRR','None',#451,#12);
#12=ADVANCED_BREP_SHAPE_REPRESENTATION('',(#14),#440);
#13=STYLED_ITEM('',(#460),#14);
#14=MANIFOLD_SOLID_BREP('Solid1',#222);
#15=CYLINDRICAL_SURFACE('',#281,6.285);
#16=FACE_BOUND('',#51,.T.);
#17=PLANE('',#252);
#18=PLANE('',#260);
#19=PLANE('',#276);
#20=LINE('',#383,#24);
#21=LINE('',#407,#25);
#22=LINE('',#427,#26);
#23=LINE('',#437,#27);
#24=VECTOR('',#300,5.9507055545811);
#25=VECTOR('',#329,6.02383483260738);
#26=VECTOR('',#352,6.13216516739262);
#27=VECTOR('',#367,6.285);
#28=CONICAL_SURFACE('',#249,5.9507055545811,1.1999138607461);
#29=CONICAL_SURFACE('',#261,6.02383483260738,0.401425727958692);
#30=CONICAL_SURFACE('',#272,6.13216516739262,0.401425727958692);
#31=FACE_OUTER_BOUND('',#42,.T.);
#32=FACE_OUTER_BOUND('',#43,.T.);
#33=FACE_OUTER_BOUND('',#44,.T.);
#34=FACE_OUTER_BOUND('',#45,.T.);
#35=FACE_OUTER_BOUND('',#46,.T.);
#36=FACE_OUTER_BOUND('',#47,.T.);
#37=FACE_OUTER_BOUND('',#48,.T.);
#38=FACE_OUTER_BOUND('',#49,.T.);
#39=FACE_OUTER_BOUND('',#50,.T.);
#40=FACE_OUTER_BOUND('',#52,.T.);
#41=FACE_OUTER_BOUND('',#53,.T.);
#42=EDGE_LOOP('',(#141,#142,#143,#144,#145,#146,#147));
#43=EDGE_LOOP('',(#148,#149,#150,#151,#152,#153,#154));
#44=EDGE_LOOP('',(#155,#156));
#45=EDGE_LOOP('',(#157,#158,#159,#160,#161,#162,#163));
#46=EDGE_LOOP('',(#164,#165));
#47=EDGE_LOOP('',(#166,#167,#168,#169,#170,#171,#172,#173));
#48=EDGE_LOOP('',(#174,#175,#176,#177,#178,#179,#180));
#49=EDGE_LOOP('',(#181,#182,#183,#184,#185,#186,#187,#188));
#50=EDGE_LOOP('',(#189,#190));
#51=EDGE_LOOP('',(#191,#192));
#52=EDGE_LOOP('',(#193,#194,#195,#196,#197,#198,#199,#200));
#53=EDGE_LOOP('',(#201,#202,#203,#204,#205,#206));
#54=CIRCLE('',#243,5.59296153863727);
#55=CIRCLE('',#244,0.125);
#56=CIRCLE('',#245,5.63826629342273);
#57=CIRCLE('',#246,5.63826629342273);
#58=CIRCLE('',#247,5.63826629342273);
#59=CIRCLE('',#248,5.59296153863727);
#60=CIRCLE('',#250,6.285);
#61=CIRCLE('',#251,6.285);
#62=CIRCLE('',#254,6.01810577917217);
#63=CIRCLE('',#255,6.01810577917217);
#64=CIRCLE('',#256,0.02);
#65=CIRCLE('',#257,5.99969568210312);
#66=CIRCLE('',#258,5.99969568210312);
#67=CIRCLE('',#259,6.01810577917217);
#68=CIRCLE('',#262,6.03473627188774);
#69=CIRCLE('',#263,6.03473627188774);
#70=CIRCLE('',#264,6.03473627188774);
#71=CIRCLE('',#266,6.15630431789688);
#72=CIRCLE('',#267,0.02);
#73=CIRCLE('',#268,6.13789422082783);
#74=CIRCLE('',#269,6.13789422082783);
#75=CIRCLE('',#270,6.13789422082783);
#76=CIRCLE('',#271,6.15630431789688);
#77=CIRCLE('',#273,6.12126372811226);
#78=CIRCLE('',#274,6.12126372811226);
#79=CIRCLE('',#275,6.12126372811226);
#80=CIRCLE('',#277,6.285);
#81=CIRCLE('',#278,6.285);
#82=CIRCLE('',#280,0.047);
#83=VERTEX_POINT('',#370);
#84=VERTEX_POINT('',#371);
#85=VERTEX_POINT('',#373);
#86=VERTEX_POINT('',#375);
#87=VERTEX_POINT('',#377);
#88=VERTEX_POINT('',#382);
#89=VERTEX_POINT('',#384);
#90=VERTEX_POINT('',#389);
#91=VERTEX_POINT('',#390);
#92=VERTEX_POINT('',#392);
#93=VERTEX_POINT('',#394);
#94=VERTEX_POINT('',#396);
#95=VERTEX_POINT('',#402);
#96=VERTEX_POINT('',#403);
#97=VERTEX_POINT('',#405);
#98=VERTEX_POINT('',#410);
#99=VERTEX_POINT('',#411);
#100=VERTEX_POINT('',#413);
#101=VERTEX_POINT('',#415);
#102=VERTEX_POINT('',#417);
#103=VERTEX_POINT('',#422);
#104=VERTEX_POINT('',#423);
#105=VERTEX_POINT('',#425);
#106=VERTEX_POINT('',#430);
#107=VERTEX_POINT('',#431);
#108=EDGE_CURVE('',#83,#84,#54,.T.);
#109=EDGE_CURVE('',#84,#85,#55,.T.);
#110=EDGE_CURVE('',#85,#86,#56,.T.);
#111=EDGE_CURVE('',#86,#87,#57,.T.);
#112=EDGE_CURVE('',#87,#85,#58,.T.);
#113=EDGE_CURVE('',#84,#83,#59,.T.);
#114=EDGE_CURVE('',#86,#88,#20,.T.);
#115=EDGE_CURVE('',#88,#89,#60,.T.);
#116=EDGE_CURVE('',#89,#88,#61,.T.);
#117=EDGE_CURVE('',#90,#91,#62,.T.);
#118=EDGE_CURVE('',#91,#92,#63,.T.);
#119=EDGE_CURVE('',#92,#93,#64,.T.);
#120=EDGE_CURVE('',#93,#94,#65,.T.);
#121=EDGE_CURVE('',#94,#93,#66,.T.);
#122=EDGE_CURVE('',#92,#90,#67,.T.);
#123=EDGE_CURVE('',#95,#96,#68,.T.);
#124=EDGE_CURVE('',#97,#95,#69,.T.);
#125=EDGE_CURVE('',#97,#91,#21,.T.);
#126=EDGE_CURVE('',#96,#97,#70,.T.);
#127=EDGE_CURVE('',#98,#99,#71,.T.);
#128=EDGE_CURVE('',#99,#100,#72,.T.);
#129=EDGE_CURVE('',#100,#101,#73,.T.);
#130=EDGE_CURVE('',#101,#102,#74,.T.);
#131=EDGE_CURVE('',#102,#100,#75,.T.);
#132=EDGE_CURVE('',#99,#98,#76,.T.);
#133=EDGE_CURVE('',#103,#104,#77,.T.);
#134=EDGE_CURVE('',#104,#105,#78,.T.);
#135=EDGE_CURVE('',#105,#101,#22,.T.);
#136=EDGE_CURVE('',#105,#103,#79,.T.);
#137=EDGE_CURVE('',#106,#107,#80,.T.);
#138=EDGE_CURVE('',#107,#106,#81,.T.);
#139=EDGE_CURVE('',#96,#104,#82,.T.);
#140=EDGE_CURVE('',#88,#107,#23,.T.);
#141=ORIENTED_EDGE('',*,*,#108,.T.);
#142=ORIENTED_EDGE('',*,*,#109,.T.);
#143=ORIENTED_EDGE('',*,*,#110,.T.);
#144=ORIENTED_EDGE('',*,*,#111,.T.);
#145=ORIENTED_EDGE('',*,*,#112,.T.);
#146=ORIENTED_EDGE('',*,*,#109,.F.);
#147=ORIENTED_EDGE('',*,*,#113,.T.);
#148=ORIENTED_EDGE('',*,*,#112,.F.);
#149=ORIENTED_EDGE('',*,*,#111,.F.);
#150=ORIENTED_EDGE('',*,*,#114,.T.);
#151=ORIENTED_EDGE('',*,*,#115,.T.);
#152=ORIENTED_EDGE('',*,*,#116,.T.);
#153=ORIENTED_EDGE('',*,*,#114,.F.);
#154=ORIENTED_EDGE('',*,*,#110,.F.);
#155=ORIENTED_EDGE('',*,*,#108,.F.);
#156=ORIENTED_EDGE('',*,*,#113,.F.);
#157=ORIENTED_EDGE('',*,*,#117,.T.);
#158=ORIENTED_EDGE('',*,*,#118,.T.);
#159=ORIENTED_EDGE('',*,*,#119,.T.);
#160=ORIENTED_EDGE('',*,*,#120,.T.);
#161=ORIENTED_EDGE('',*,*,#121,.T.);
#162=ORIENTED_EDGE('',*,*,#119,.F.);
#163=ORIENTED_EDGE('',*,*,#122,.T.);
#164=ORIENTED_EDGE('',*,*,#121,.F.);
#165=ORIENTED_EDGE('',*,*,#120,.F.);
#166=ORIENTED_EDGE('',*,*,#123,.F.);
#167=ORIENTED_EDGE('',*,*,#124,.F.);
#168=ORIENTED_EDGE('',*,*,#125,.T.);
#169=ORIENTED_EDGE('',*,*,#117,.F.);
#170=ORIENTED_EDGE('',*,*,#122,.F.);
#171=ORIENTED_EDGE('',*,*,#118,.F.);
#172=ORIENTED_EDGE('',*,*,#125,.F.);
#173=ORIENTED_EDGE('',*,*,#126,.F.);
#174=ORIENTED_EDGE('',*,*,#127,.T.);
#175=ORIENTED_EDGE('',*,*,#128,.T.);
#176=ORIENTED_EDGE('',*,*,#129,.T.);
#177=ORIENTED_EDGE('',*,*,#130,.T.);
#178=ORIENTED_EDGE('',*,*,#131,.T.);
#179=ORIENTED_EDGE('',*,*,#128,.F.);
#180=ORIENTED_EDGE('',*,*,#132,.T.);
#181=ORIENTED_EDGE('',*,*,#133,.T.);
#182=ORIENTED_EDGE('',*,*,#134,.T.);
#183=ORIENTED_EDGE('',*,*,#135,.T.);
#184=ORIENTED_EDGE('',*,*,#129,.F.);
#185=ORIENTED_EDGE('',*,*,#131,.F.);
#186=ORIENTED_EDGE('',*,*,#130,.F.);
#187=ORIENTED_EDGE('',*,*,#135,.F.);
#188=ORIENTED_EDGE('',*,*,#136,.T.);
#189=ORIENTED_EDGE('',*,*,#137,.F.);
#190=ORIENTED_EDGE('',*,*,#138,.F.);
#191=ORIENTED_EDGE('',*,*,#127,.F.);
#192=ORIENTED_EDGE('',*,*,#132,.F.);
#193=ORIENTED_EDGE('',*,*,#123,.T.);
#194=ORIENTED_EDGE('',*,*,#139,.T.);
#195=ORIENTED_EDGE('',*,*,#133,.F.);
#196=ORIENTED_EDGE('',*,*,#136,.F.);
#197=ORIENTED_EDGE('',*,*,#134,.F.);
#198=ORIENTED_EDGE('',*,*,#139,.F.);
#199=ORIENTED_EDGE('',*,*,#126,.T.);
#200=ORIENTED_EDGE('',*,*,#124,.T.);
#201=ORIENTED_EDGE('',*,*,#116,.F.);
#202=ORIENTED_EDGE('',*,*,#115,.F.);
#203=ORIENTED_EDGE('',*,*,#140,.T.);
#204=ORIENTED_EDGE('',*,*,#138,.T.);
#205=ORIENTED_EDGE('',*,*,#137,.T.);
#206=ORIENTED_EDGE('',*,*,#140,.F.);
#207=TOROIDAL_SURFACE('',#242,5.59296153863727,0.125);
#208=TOROIDAL_SURFACE('',#253,5.99969568210312,0.02);
#209=TOROIDAL_SURFACE('',#265,6.15630431789688,0.02);
#210=TOROIDAL_SURFACE('',#279,6.078,0.047);
#211=ADVANCED_FACE('',(#31),#207,.T.);
#212=ADVANCED_FACE('',(#32),#28,.T.);
#213=ADVANCED_FACE('',(#33),#17,.T.);
#214=ADVANCED_FACE('',(#34),#208,.T.);
#215=ADVANCED_FACE('',(#35),#18,.T.);
#216=ADVANCED_FACE('',(#36),#29,.T.);
#217=ADVANCED_FACE('',(#37),#209,.T.);
#218=ADVANCED_FACE('',(#38),#30,.F.);
#219=ADVANCED_FACE('',(#39,#16),#19,.T.);
#220=ADVANCED_FACE('',(#40),#210,.F.);
#221=ADVANCED_FACE('',(#41),#15,.T.);
#222=CLOSED_SHELL('',(#211,#212,#213,#214,#215,#216,#217,#218,#219,#220,
#221));
#223=DERIVED_UNIT_ELEMENT(#225,1.);
#224=DERIVED_UNIT_ELEMENT(#445,3.);
#225=(
MASS_UNIT()
NAMED_UNIT(*)
SI_UNIT($,.GRAM.)
);
#226=DERIVED_UNIT((#223,#224));
#227=MEASURE_REPRESENTATION_ITEM('density measure',
POSITIVE_RATIO_MEASURE(1.),#226);
#228=PROPERTY_DEFINITION_REPRESENTATION(#233,#230);
#229=PROPERTY_DEFINITION_REPRESENTATION(#234,#231);
#230=REPRESENTATION('material name',(#232),#440);
#231=REPRESENTATION('density',(#227),#440);
#232=DESCRIPTIVE_REPRESENTATION_ITEM('Generic','Generic');
#233=PROPERTY_DEFINITION('material property','material name',#453);
#234=PROPERTY_DEFINITION('material property','density of part',#453);
#235=DATE_TIME_ROLE('creation_date');
#236=APPLIED_DATE_AND_TIME_ASSIGNMENT(#237,#235,(#453));
#237=DATE_AND_TIME(#238,#239);
#238=CALENDAR_DATE(2006,1,11);
#239=LOCAL_TIME(20,19,35.,#240);
#240=COORDINATED_UNIVERSAL_TIME_OFFSET(0,0,.BEHIND.);
#241=AXIS2_PLACEMENT_3D('placement',#368,#282,#283);
#242=AXIS2_PLACEMENT_3D('',#369,#284,#285);
#243=AXIS2_PLACEMENT_3D('',#372,#286,#287);
#244=AXIS2_PLACEMENT_3D('',#374,#288,#289);
#245=AXIS2_PLACEMENT_3D('',#376,#290,#291);
#246=AXIS2_PLACEMENT_3D('',#378,#292,#293);
#247=AXIS2_PLACEMENT_3D('',#379,#294,#295);
#248=AXIS2_PLACEMENT_3D('',#380,#296,#297);
#249=AXIS2_PLACEMENT_3D('',#381,#298,#299);
#250=AXIS2_PLACEMENT_3D('',#385,#301,#302);
#251=AXIS2_PLACEMENT_3D('',#386,#303,#304);
#252=AXIS2_PLACEMENT_3D('',#387,#305,#306);
#253=AXIS2_PLACEMENT_3D('',#388,#307,#308);
#254=AXIS2_PLACEMENT_3D('',#391,#309,#310);
#255=AXIS2_PLACEMENT_3D('',#393,#311,#312);
#256=AXIS2_PLACEMENT_3D('',#395,#313,#314);
#257=AXIS2_PLACEMENT_3D('',#397,#315,#316);
#258=AXIS2_PLACEMENT_3D('',#398,#317,#318);
#259=AXIS2_PLACEMENT_3D('',#399,#319,#320);
#260=AXIS2_PLACEMENT_3D('',#400,#321,#322);
#261=AXIS2_PLACEMENT_3D('',#401,#323,#324);
#262=AXIS2_PLACEMENT_3D('',#404,#325,#326);
#263=AXIS2_PLACEMENT_3D('',#406,#327,#328);
#264=AXIS2_PLACEMENT_3D('',#408,#330,#331);
#265=AXIS2_PLACEMENT_3D('',#409,#332,#333);
#266=AXIS2_PLACEMENT_3D('',#412,#334,#335);
#267=AXIS2_PLACEMENT_3D('',#414,#336,#337);
#268=AXIS2_PLACEMENT_3D('',#416,#338,#339);
#269=AXIS2_PLACEMENT_3D('',#418,#340,#341);
#270=AXIS2_PLACEMENT_3D('',#419,#342,#343);
#271=AXIS2_PLACEMENT_3D('',#420,#344,#345);
#272=AXIS2_PLACEMENT_3D('',#421,#346,#347);
#273=AXIS2_PLACEMENT_3D('',#424,#348,#349);
#274=AXIS2_PLACEMENT_3D('',#426,#350,#351);
#275=AXIS2_PLACEMENT_3D('',#428,#353,#354);
#276=AXIS2_PLACEMENT_3D('',#429,#355,#356);
#277=AXIS2_PLACEMENT_3D('',#432,#357,#358);
#278=AXIS2_PLACEMENT_3D('',#433,#359,#360);
#279=AXIS2_PLACEMENT_3D('',#434,#361,#362);
#280=AXIS2_PLACEMENT_3D('',#435,#363,#364);
#281=AXIS2_PLACEMENT_3D('',#436,#365,#366);
#282=DIRECTION('axis',(0.,0.,1.));
#283=DIRECTION('refdir',(1.,0.,0.));
#284=DIRECTION('center_axis',(1.,1.11070332361161E-35,0.));
#285=DIRECTION('ref_axis',(0.,0.,-1.));
#286=DIRECTION('center_axis',(-1.,-1.11070332361161E-35,0.));
#287=DIRECTION('ref_axis',(1.11070332361161E-35,-1.,1.22464679914735E-16));
#288=DIRECTION('center_axis',(1.11070332361161E-35,-1.,-1.22464679914735E-16));
#289=DIRECTION('ref_axis',(0.,-1.22464679914735E-16,1.));
#290=DIRECTION('center_axis',(1.,0.,0.));
#291=DIRECTION('ref_axis',(0.,-1.,0.));
#292=DIRECTION('center_axis',(1.,0.,0.));
#293=DIRECTION('ref_axis',(0.,-1.,0.));
#294=DIRECTION('center_axis',(1.,0.,0.));
#295=DIRECTION('ref_axis',(0.,-1.,0.));
#296=DIRECTION('center_axis',(-1.,-1.11070332361161E-35,0.));
#297=DIRECTION('ref_axis',(1.11070332361161E-35,-1.,1.22464679914735E-16));
#298=DIRECTION('center_axis',(-1.,-1.11070332361161E-35,0.));
#299=DIRECTION('ref_axis',(0.,1.,0.));
#300=DIRECTION('',(-0.362438038283702,-0.932007869282798,-1.14138045389732E-16));
#301=DIRECTION('center_axis',(1.,1.11070332361161E-35,0.));
#302=DIRECTION('ref_axis',(0.,1.,0.));
#303=DIRECTION('center_axis',(1.,1.11070332361161E-35,0.));
#304=DIRECTION('ref_axis',(0.,1.,0.));
#305=DIRECTION('center_axis',(1.,1.11070332361161E-35,0.));
#306=DIRECTION('ref_axis',(0.,0.,-1.));
#307=DIRECTION('center_axis',(1.,1.11070332361161E-35,0.));
#308=DIRECTION('ref_axis',(0.,0.,-1.));
#309=DIRECTION('center_axis',(-1.,0.,0.));
#310=DIRECTION('ref_axis',(0.,-1.,0.));
#311=DIRECTION('center_axis',(-1.,0.,0.));
#312=DIRECTION('ref_axis',(0.,-1.,0.));
#313=DIRECTION('center_axis',(1.11070332361161E-35,-1.,-1.22464679914735E-16));
#314=DIRECTION('ref_axis',(0.,-1.22464679914735E-16,1.));
#315=DIRECTION('center_axis',(1.,1.11070332361161E-35,0.));
#316=DIRECTION('ref_axis',(1.11070332361161E-35,-1.,1.22464679914735E-16));
#317=DIRECTION('center_axis',(1.,1.11070332361161E-35,0.));
#318=DIRECTION('ref_axis',(1.11070332361161E-35,-1.,1.22464679914735E-16));
#319=DIRECTION('center_axis',(-1.,0.,0.));
#320=DIRECTION('ref_axis',(0.,-1.,0.));
#321=DIRECTION('center_axis',(-1.,-1.11070332361161E-35,0.));
#322=DIRECTION('ref_axis',(0.,0.,1.));
#323=DIRECTION('center_axis',(1.,1.11070332361161E-35,0.));
#324=DIRECTION('ref_axis',(0.,1.,0.));
#325=DIRECTION('center_axis',(1.,1.11070332361161E-35,0.));
#326=DIRECTION('ref_axis',(0.,1.,0.));
#327=DIRECTION('center_axis',(1.,1.11070332361161E-35,0.));
#328=DIRECTION('ref_axis',(0.,1.,0.));
#329=DIRECTION('',(-0.920504853452442,0.39073112848927,4.78507625831618E-17));
#330=DIRECTION('center_axis',(1.,1.11070332361161E-35,0.));
#331=DIRECTION('ref_axis',(0.,1.,0.));
#332=DIRECTION('center_axis',(1.,1.11070332361161E-35,0.));
#333=DIRECTION('ref_axis',(0.,0.,-1.));
#334=DIRECTION('center_axis',(-1.,-1.11070332361161E-35,0.));
#335=DIRECTION('ref_axis',(1.11070332361161E-35,-1.,1.22464679914735E-16));
#336=DIRECTION('center_axis',(1.11070332361161E-35,-1.,-1.22464679914735E-16));
#337=DIRECTION('ref_axis',(0.,-1.22464679914735E-16,1.));
#338=DIRECTION('center_axis',(1.,0.,0.));
#339=DIRECTION('ref_axis',(0.,-1.,0.));
#340=DIRECTION('center_axis',(1.,0.,0.));
#341=DIRECTION('ref_axis',(0.,-1.,0.));
#342=DIRECTION('center_axis',(1.,0.,0.));
#343=DIRECTION('ref_axis',(0.,-1.,0.));
#344=DIRECTION('center_axis',(-1.,-1.11070332361161E-35,0.));
#345=DIRECTION('ref_axis',(1.11070332361161E-35,-1.,1.22464679914735E-16));
#346=DIRECTION('center_axis',(-1.,-1.11070332361161E-35,0.));
#347=DIRECTION('ref_axis',(0.,1.,0.));
#348=DIRECTION('center_axis',(1.,1.11070332361161E-35,0.));
#349=DIRECTION('ref_axis',(0.,1.,0.));
#350=DIRECTION('center_axis',(1.,1.11070332361161E-35,0.));
#351=DIRECTION('ref_axis',(0.,1.,0.));
#352=DIRECTION('',(-0.920504853452442,-0.39073112848927,-4.78507625831618E-17));
#353=DIRECTION('center_axis',(1.,1.11070332361161E-35,0.));
#354=DIRECTION('ref_axis',(0.,1.,0.));
#355=DIRECTION('center_axis',(-1.,-1.11070332361161E-35,0.));
#356=DIRECTION('ref_axis',(0.,0.,1.));
#357=DIRECTION('center_axis',(1.,1.11070332361161E-35,0.));
#358=DIRECTION('ref_axis',(0.,1.,0.));
#359=DIRECTION('center_axis',(1.,1.11070332361161E-35,0.));
#360=DIRECTION('ref_axis',(0.,1.,0.));
#361=DIRECTION('center_axis',(1.,1.11070332361161E-35,0.));
#362=DIRECTION('ref_axis',(0.,0.,-1.));
#363=DIRECTION('center_axis',(1.11070332361161E-35,-1.,-1.22464679914735E-16));
#364=DIRECTION('ref_axis',(0.,-1.22464679914735E-16,1.));
#365=DIRECTION('center_axis',(1.,1.11070332361161E-35,0.));
#366=DIRECTION('ref_axis',(0.,1.,0.));
#367=DIRECTION('',(-1.,-1.11070332361161E-35,0.));
#368=CARTESIAN_POINT('',(0.,0.,0.));
#369=CARTESIAN_POINT('Origin',(0.355,3.94299679882121E-36,0.));
#370=CARTESIAN_POINT('',(0.48,5.59296153863727,-1.36988048920928E-15));
#371=CARTESIAN_POINT('',(0.48,-6.84940244604639E-16,5.59296153863727));
#372=CARTESIAN_POINT('Origin',(0.48,5.33137595333572E-36,0.));
#373=CARTESIAN_POINT('',(0.471500983660349,-6.90488476898056E-16,5.63826629342273));
#374=CARTESIAN_POINT('Origin',(0.355,-6.84940244604639E-16,5.59296153863727));
#375=CARTESIAN_POINT('',(0.47150098366035,-5.63826629342273,-6.90488476898056E-16));
#376=CARTESIAN_POINT('Origin',(0.471500983660349,0.,-6.90488476898056E-16));
#377=CARTESIAN_POINT('',(0.471500983660349,5.63826629342273,0.));
#378=CARTESIAN_POINT('Origin',(0.471500983660349,0.,-6.90488476898056E-16));
#379=CARTESIAN_POINT('Origin',(0.471500983660349,0.,-6.90488476898056E-16));
#380=CARTESIAN_POINT('Origin',(0.48,5.33137595333572E-36,0.));
#381=CARTESIAN_POINT('Origin',(0.349999999999998,3.88746163264061E-36,0.));
#382=CARTESIAN_POINT('',(0.219999999999998,-6.285,-7.69690513264111E-16));
#383=CARTESIAN_POINT('',(0.349999999999998,-5.9507055545811,-7.28751251008612E-16));
#384=CARTESIAN_POINT('',(0.219999999999998,6.285,0.));
#385=CARTESIAN_POINT('Origin',(0.219999999999998,2.44354731194552E-36,0.));
#386=CARTESIAN_POINT('Origin',(0.219999999999998,2.44354731194552E-36,0.));
#387=CARTESIAN_POINT('Origin',(0.48,2.8082055545811,0.));
#388=CARTESIAN_POINT('Origin',(0.0199999999999994,2.22140664722316E-37,
0.));
#389=CARTESIAN_POINT('',(0.0121853774302141,6.01810577917217,-1.47401079587868E-15));
#390=CARTESIAN_POINT('',(0.0121853774302135,-6.01810577917217,-7.37005397939338E-16));
#391=CARTESIAN_POINT('Origin',(0.0121853774302141,0.,-7.37005397939338E-16));
#392=CARTESIAN_POINT('',(0.0121853774302141,-7.37005397939338E-16,6.01810577917217));
#393=CARTESIAN_POINT('Origin',(0.0121853774302141,0.,-7.37005397939338E-16));
#394=CARTESIAN_POINT('',(-5.51833294720181E-16,-7.34750811294578E-16,5.99969568210312));
#395=CARTESIAN_POINT('Origin',(0.0199999999999994,-7.34750811294578E-16,
5.99969568210312));
#396=CARTESIAN_POINT('',(-5.51833294720181E-16,5.99969568210312,0.));
#397=CARTESIAN_POINT('Origin',(-5.51833294720181E-16,-5.95189976041692E-51,
0.));
#398=CARTESIAN_POINT('Origin',(-5.51833294720181E-16,-5.95189976041692E-51,
0.));
#399=CARTESIAN_POINT('Origin',(0.0121853774302141,0.,-7.37005397939338E-16));
#400=CARTESIAN_POINT('Origin',(-5.51833294720181E-16,3.00646669666352,0.));
#401=CARTESIAN_POINT('Origin',(0.0256821815194971,2.85252843713021E-37,
0.));
#402=CARTESIAN_POINT('',(0.0513643630389953,6.03473627188774,0.));
#403=CARTESIAN_POINT('',(0.0513643630389952,-7.39042045906575E-16,6.03473627188774));
#404=CARTESIAN_POINT('Origin',(0.0513643630389952,5.70505687426053E-37,
0.));
#405=CARTESIAN_POINT('',(0.0513643630389954,-6.03473627188774,-7.39042045906575E-16));
#406=CARTESIAN_POINT('Origin',(0.0513643630389952,5.70505687426053E-37,
0.));
#407=CARTESIAN_POINT('',(0.0256821815194971,-6.02383483260738,-7.37707004634497E-16));
#408=CARTESIAN_POINT('Origin',(0.0513643630389952,5.70505687426053E-37,
0.));
#409=CARTESIAN_POINT('Origin',(0.0199999999999985,2.22140664722305E-37,
0.));
#410=CARTESIAN_POINT('',(-1.54622596441397E-15,6.15630431789688,-1.50785967549789E-15));
#411=CARTESIAN_POINT('',(-1.54622596441397E-15,-7.53929837748944E-16,6.15630431789688));
#412=CARTESIAN_POINT('Origin',(-1.54622596441397E-15,-1.70336136789832E-50,
0.));
#413=CARTESIAN_POINT('',(0.012185377430213,-7.51675251104184E-16,6.13789422082783));
#414=CARTESIAN_POINT('Origin',(0.0199999999999985,-7.53929837748944E-16,
6.15630431789688));
#415=CARTESIAN_POINT('',(0.0121853774302124,-6.13789422082783,-7.51675251104184E-16));
#416=CARTESIAN_POINT('Origin',(0.012185377430213,0.,-7.51675251104184E-16));
#417=CARTESIAN_POINT('',(0.012185377430213,6.13789422082783,0.));
#418=CARTESIAN_POINT('Origin',(0.012185377430213,0.,-7.51675251104184E-16));
#419=CARTESIAN_POINT('Origin',(0.012185377430213,0.,-7.51675251104184E-16));
#420=CARTESIAN_POINT('Origin',(-1.54622596441397E-15,-1.70336136789832E-50,
0.));
#421=CARTESIAN_POINT('Origin',(0.025682181519497,2.8525284371302E-37,0.));
#422=CARTESIAN_POINT('',(0.0513643630389952,6.12126372811226,0.));
#423=CARTESIAN_POINT('',(0.0513643630389952,-7.49638603136948E-16,6.12126372811226));
#424=CARTESIAN_POINT('Origin',(0.0513643630389952,5.70505687426053E-37,
0.));
#425=CARTESIAN_POINT('',(0.0513643630389953,-6.12126372811226,-7.49638603136948E-16));
#426=CARTESIAN_POINT('Origin',(0.0513643630389952,5.70505687426053E-37,
0.));
#427=CARTESIAN_POINT('',(0.025682181519497,-6.13216516739262,-7.50973644409026E-16));
#428=CARTESIAN_POINT('Origin',(0.0513643630389952,5.70505687426053E-37,
0.));
#429=CARTESIAN_POINT('Origin',(-1.54645597430256E-15,6.21403330333648,0.));
#430=CARTESIAN_POINT('',(-1.90956174757132E-15,6.285,0.));
#431=CARTESIAN_POINT('',(-1.92322098753964E-15,-6.285,-7.69690513264111E-16));
#432=CARTESIAN_POINT('Origin',(-1.92322098753964E-15,-2.10453914180488E-50,
0.));
#433=CARTESIAN_POINT('Origin',(-1.92322098753964E-15,-2.10453914180488E-50,
0.));
#434=CARTESIAN_POINT('Origin',(0.0329999999999989,0.,0.));
#435=CARTESIAN_POINT('Origin',(0.0329999999999989,-7.44340324521761E-16,
6.078));
#436=CARTESIAN_POINT('Origin',(0.109999999999998,1.22177365597275E-36,0.));
#437=CARTESIAN_POINT('',(0.109999999999998,-6.285,-7.69690513264111E-16));
#438=UNCERTAINTY_MEASURE_WITH_UNIT(LENGTH_MEASURE(0.000393700787401575),
#443,'DISTANCE_ACCURACY_VALUE',
'Maximum model space distance between geometric entities at asserted c
onnectivities');
#439=UNCERTAINTY_MEASURE_WITH_UNIT(LENGTH_MEASURE(0.000393700787401575),
#443,'DISTANCE_ACCURACY_VALUE',
'Maximum model space distance between geometric entities at asserted c
onnectivities');
#440=(
GEOMETRIC_REPRESENTATION_CONTEXT(3)
GLOBAL_UNCERTAINTY_ASSIGNED_CONTEXT((#438))
GLOBAL_UNIT_ASSIGNED_CONTEXT((#443,#447,#448))
REPRESENTATION_CONTEXT('','3D')
);
#441=(
GEOMETRIC_REPRESENTATION_CONTEXT(3)
GLOBAL_UNCERTAINTY_ASSIGNED_CONTEXT((#439))
GLOBAL_UNIT_ASSIGNED_CONTEXT((#443,#447,#448))
REPRESENTATION_CONTEXT('','3D')
);
#442=DIMENSIONAL_EXPONENTS(1.,0.,0.,0.,0.,0.,0.);
#443=(
CONVERSION_BASED_UNIT('inch',#446)
LENGTH_UNIT()
NAMED_UNIT(#442)
);
#444=(
LENGTH_UNIT()
NAMED_UNIT(*)
SI_UNIT(.MILLI.,.METRE.)
);
#445=(
LENGTH_UNIT()
NAMED_UNIT(*)
SI_UNIT(.CENTI.,.METRE.)
);
#446=LENGTH_MEASURE_WITH_UNIT(LENGTH_MEASURE(25.4),#444);
#447=(
NAMED_UNIT(*)
PLANE_ANGLE_UNIT()
SI_UNIT($,.RADIAN.)
);
#448=(
NAMED_UNIT(*)
SI_UNIT($,.STERADIAN.)
SOLID_ANGLE_UNIT()
);
#449=SHAPE_DEFINITION_REPRESENTATION(#450,#451);
#450=PRODUCT_DEFINITION_SHAPE('',$,#453);
#451=SHAPE_REPRESENTATION('',(#241),#440);
#452=PRODUCT_DEFINITION_CONTEXT('part definition',#457,'design');
#453=PRODUCT_DEFINITION('16AMP-12','16AMP-12',#454,#452);
#454=PRODUCT_DEFINITION_FORMATION('',$,#459);
#455=PRODUCT_RELATED_PRODUCT_CATEGORY('16AMP-12','16AMP-12',(#459));
#456=APPLICATION_PROTOCOL_DEFINITION('international standard',
'automotive_design',2009,#457);
#457=APPLICATION_CONTEXT(
'Core Data for Automotive Mechanical Design Process');
#458=PRODUCT_CONTEXT('part definition',#457,'mechanical');
#459=PRODUCT('16AMP-12','16AMP-12',$,(#458));
#460=PRESENTATION_STYLE_ASSIGNMENT((#461));
#461=SURFACE_STYLE_USAGE(.BOTH.,#464);
#462=SURFACE_STYLE_RENDERING_WITH_PROPERTIES($,#468,(#463));
#463=SURFACE_STYLE_TRANSPARENT(0.);
#464=SURFACE_SIDE_STYLE('',(#465,#462));
#465=SURFACE_STYLE_FILL_AREA(#466);
#466=FILL_AREA_STYLE('',(#467));
#467=FILL_AREA_STYLE_COLOUR('',#468);
#468=COLOUR_RGB('',0.749019607843137,0.749019607843137,0.749019607843137);
ENDSEC;
END-ISO-10303-21;
